999
Inkscape export via "Better DXF Output" (bob@bobcookdev.com)
  0
SECTION
  2
HEADER
  9
$ACADVER
  1
AC1014
  9
$HANDSEED
  5
FFFF
  0
ENDSEC
  0
SECTION
  2
TABLES
  0
TABLE
  2
VPORT
  5
8
330
0
100
AcDbSymbolTable
 70
     4
  0
VPORT
  5
2E
330
8
100
AcDbSymbolTableRecord
100
AcDbViewportTableRecord
  2
*ACTIVE
 70
     0
 10
0.0
 20
0.0
 11
1.0
 21
1.0
 12
4.25
 22
5.5
 13
0.0
 23
0.0
 14
10.0
 24
10.0
 15
10.0
 25
10.0
 16
0.0
 26
0.0
 36
1.0
 17
0.0
 27
0.0
 37
0.0
 40
11
 41
1.24
 42
50.0
 43
0.0
 44
0.0
 50
0.0
 51
0.0
 71
     0
 72
   100
 73
     1
 74
     3
 75
     0
 76
     0
 77
     0
 78
     0
  0
ENDTAB
  0
TABLE
  2
LTYPE
  5
5
330
0
100
AcDbSymbolTable
 70
     1
  0
LTYPE
  5
14
330
5
100
AcDbSymbolTableRecord
100
AcDbLinetypeTableRecord
  2
BYBLOCK
 70
     0
  3

 72
    65
 73
     0
 40
0.0
  0
LTYPE
  5
15
330
5
100
AcDbSymbolTableRecord
100
AcDbLinetypeTableRecord
  2
BYLAYER
 70
     0
  3

 72
    65
 73
     0
 40
0.0
  0
LTYPE
  5
16
330
5
100
AcDbSymbolTableRecord
100
AcDbLinetypeTableRecord
  2
CONTINUOUS
 70
     0
  3
Solid line
 72
    65
 73
     0
 40
0.0
  0
ENDTAB
  0
TABLE
  2
LAYER
  5
2
330
0
100
AcDbSymbolTable
 70
1
  0
LAYER
  5
10
330
2
100
AcDbSymbolTableRecord
100
AcDbLayerTableRecord
  2
0
 70
     0
 62
     7
  6
CONTINUOUS
  0
ENDTAB
  0
TABLE
  2
STYLE
  5
3
330
0
100
AcDbSymbolTable
 70
     1
  0
STYLE
  5
11
330
3
100
AcDbSymbolTableRecord
100
AcDbTextStyleTableRecord
  2
STANDARD
 70
     0
 40
0.0
 41
1.0
 50
0.0
 71
     0
 42
2.5
  3
txt
  4

  0
ENDTAB
  0
TABLE
  2
VIEW
  5
6
330
0
100
AcDbSymbolTable
 70
     0
  0
ENDTAB
  0
TABLE
  2
UCS
  5
7
330
0
100
AcDbSymbolTable
 70
     0
  0
ENDTAB
  0
TABLE
  2
APPID
  5
9
330
0
100
AcDbSymbolTable
 70
     2
  0
APPID
  5
12
330
9
100
AcDbSymbolTableRecord
100
AcDbRegAppTableRecord
  2
ACAD
 70
     0
  0
ENDTAB
  0
TABLE
  2
DIMSTYLE
  5
A
330
0
100
AcDbSymbolTable
 70
     1
  0
DIMSTYLE
105
27
330
A
100
AcDbSymbolTableRecord
100
AcDbDimStyleTableRecord
  2
ISO-25
 70
     0
  3

  4

  5

  6

  7

 40
1.0
 41
2.5
 42
0.625
 43
3.75
 44
1.25
 45
0.0
 46
0.0
 47
0.0
 48
0.0
140
2.5
141
2.5
142
0.0
143
0.03937007874016
144
1.0
145
0.0
146
1.0
147
0.625
 71
     0
 72
     0
 73
     0
 74
     0
 75
     0
 76
     0
 77
     1
 78
     8
170
     0
171
     3
172
     1
173
     0
174
     0
175
     0
176
     0
177
     0
178
     0
270
     2
271
     2
272
     2
273
     2
274
     3
340
11
275
     0
280
     0
281
     0
282
     0
283
     0
284
     8
285
     0
286
     0
287
     3
288
     0
  0
ENDTAB
  0
TABLE
  2
BLOCK_RECORD
  5
1
330
0
100
AcDbSymbolTable
 70
     1
  0
BLOCK_RECORD
  5
1F
330
1
100
AcDbSymbolTableRecord
100
AcDbBlockTableRecord
  2
*MODEL_SPACE
  0
BLOCK_RECORD
  5
1B
330
1
100
AcDbSymbolTableRecord
100
AcDbBlockTableRecord
  2
*PAPER_SPACE
  0
ENDTAB
  0
ENDSEC
  0
SECTION
  2
BLOCKS
  0
BLOCK
  5
20
330
1F
100
AcDbEntity
  8
0
100
AcDbBlockBegin
  2
*MODEL_SPACE
 70
     0
 10
0.0
 20
0.0
 30
0.0
  3
*MODEL_SPACE
  1

  0
ENDBLK
  5
21
330
1F
100
AcDbEntity
  8
0
100
AcDbBlockEnd
  0
BLOCK
  5
1C
330
1B
100
AcDbEntity
 67
     1
  8
0
100
AcDbBlockBegin
  2
*PAPER_SPACE
  1

  0
ENDBLK
  5
1D
330
1B
100
AcDbEntity
 67
     1
  8
0
100
AcDbBlockEnd
  0
ENDSEC
  0
SECTION
  2
ENTITIES
0
LINE
8
Ebene 1
62
4
5
100
100
AcDbEntity
100
AcDbLine
10
-0.988503
20
20.007612
30
0.0
11
-1.044336
21
20.007048
31
0.0
0
LINE
8
Ebene 1
62
4
5
101
100
AcDbEntity
100
AcDbLine
10
-1.044336
20
20.007048
30
0.0
11
-1.335049
21
19.980463
31
0.0
0
LINE
8
Ebene 1
62
4
5
102
100
AcDbEntity
100
AcDbLine
10
-1.335049
20
19.980463
30
0.0
11
-3.542685
21
19.284130
31
0.0
0
LINE
8
Ebene 1
62
4
5
103
100
AcDbEntity
100
AcDbLine
10
-3.542685
20
19.284130
30
0.0
11
-5.885733
21
18.703413
31
0.0
0
LINE
8
Ebene 1
62
4
5
104
100
AcDbEntity
100
AcDbLine
10
-5.885733
20
18.703413
30
0.0
11
-7.537837
21
17.881625
31
0.0
0
LINE
8
Ebene 1
62
4
5
105
100
AcDbEntity
100
AcDbLine
10
-7.537837
20
17.881625
30
0.0
11
-9.763854
21
16.609101
31
0.0
0
LINE
8
Ebene 1
62
4
5
106
100
AcDbEntity
100
AcDbLine
10
-9.763854
20
16.609101
30
0.0
11
-12.097492
21
14.767316
31
0.0
0
LINE
8
Ebene 1
62
4
5
107
100
AcDbEntity
100
AcDbLine
10
-12.097492
20
14.767316
30
0.0
11
-13.959712
21
12.850507
31
0.0
0
LINE
8
Ebene 1
62
4
5
108
100
AcDbEntity
100
AcDbLine
10
-13.959712
20
12.850507
30
0.0
11
-15.399910
21
10.861534
31
0.0
0
LINE
8
Ebene 1
62
4
5
109
100
AcDbEntity
100
AcDbLine
10
-15.399910
20
10.861534
30
0.0
11
-16.467485
21
8.803258
31
0.0
0
LINE
8
Ebene 1
62
4
5
10a
100
AcDbEntity
100
AcDbLine
10
-16.467485
20
8.803258
30
0.0
11
-17.211833
21
6.678539
31
0.0
0
LINE
8
Ebene 1
62
4
5
10b
100
AcDbEntity
100
AcDbLine
10
-17.211833
20
6.678539
30
0.0
11
-17.682352
21
4.490238
31
0.0
0
LINE
8
Ebene 1
62
4
5
10c
100
AcDbEntity
100
AcDbLine
10
-17.682352
20
4.490238
30
0.0
11
-17.928438
21
2.241214
31
0.0
0
LINE
8
Ebene 1
62
4
5
10d
100
AcDbEntity
100
AcDbLine
10
-17.928438
20
2.241214
30
0.0
11
-17.999491
21
-0.065672
31
0.0
0
LINE
8
Ebene 1
62
4
5
10e
100
AcDbEntity
100
AcDbLine
10
-17.999491
20
-0.065672
30
0.0
11
-17.911304
21
-1.876847
31
0.0
0
LINE
8
Ebene 1
62
4
5
10f
100
AcDbEntity
100
AcDbLine
10
-17.911304
20
-1.876847
30
0.0
11
-17.652468
21
-3.635711
31
0.0
0
LINE
8
Ebene 1
62
4
5
110
100
AcDbEntity
100
AcDbLine
10
-17.652468
20
-3.635711
30
0.0
11
-17.231569
21
-5.333360
31
0.0
0
LINE
8
Ebene 1
62
4
5
111
100
AcDbEntity
100
AcDbLine
10
-17.231569
20
-5.333360
30
0.0
11
-16.657195
21
-6.960889
31
0.0
0
LINE
8
Ebene 1
62
4
5
112
100
AcDbEntity
100
AcDbLine
10
-16.657195
20
-6.960889
30
0.0
11
-15.937933
21
-8.509390
31
0.0
0
LINE
8
Ebene 1
62
4
5
113
100
AcDbEntity
100
AcDbLine
10
-15.937933
20
-8.509390
30
0.0
11
-15.082368
21
-9.969961
31
0.0
0
LINE
8
Ebene 1
62
4
5
114
100
AcDbEntity
100
AcDbLine
10
-15.082368
20
-9.969961
30
0.0
11
-14.099087
21
-11.333694
31
0.0
0
LINE
8
Ebene 1
62
4
5
115
100
AcDbEntity
100
AcDbLine
10
-14.099087
20
-11.333694
30
0.0
11
-12.996679
21
-12.591685
31
0.0
0
LINE
8
Ebene 1
62
4
5
116
100
AcDbEntity
100
AcDbLine
10
-12.996679
20
-12.591685
30
0.0
11
-11.783728
21
-13.735029
31
0.0
0
LINE
8
Ebene 1
62
4
5
117
100
AcDbEntity
100
AcDbLine
10
-11.783728
20
-13.735029
30
0.0
11
-10.468822
21
-14.754819
31
0.0
0
LINE
8
Ebene 1
62
4
5
118
100
AcDbEntity
100
AcDbLine
10
-10.468822
20
-14.754819
30
0.0
11
-9.060549
21
-15.642152
31
0.0
0
LINE
8
Ebene 1
62
4
5
119
100
AcDbEntity
100
AcDbLine
10
-9.060549
20
-15.642152
30
0.0
11
-7.567493
21
-16.388121
31
0.0
0
LINE
8
Ebene 1
62
4
5
11a
100
AcDbEntity
100
AcDbLine
10
-7.567493
20
-16.388121
30
0.0
11
-5.998243
21
-16.983820
31
0.0
0
LINE
8
Ebene 1
62
4
5
11b
100
AcDbEntity
100
AcDbLine
10
-5.998243
20
-16.983820
30
0.0
11
-4.361385
21
-17.420346
31
0.0
0
LINE
8
Ebene 1
62
4
5
11c
100
AcDbEntity
100
AcDbLine
10
-4.361385
20
-17.420346
30
0.0
11
-2.665506
21
-17.688792
31
0.0
0
LINE
8
Ebene 1
62
4
5
11d
100
AcDbEntity
100
AcDbLine
10
-2.665506
20
-17.688792
30
0.0
11
-0.919193
21
-17.780253
31
0.0
0
LINE
8
Ebene 1
62
4
5
11e
100
AcDbEntity
100
AcDbLine
10
-0.919193
20
-17.780253
30
0.0
11
-0.001483
21
-17.753724
31
0.0
0
LINE
8
Ebene 1
62
4
5
11f
100
AcDbEntity
100
AcDbLine
10
-0.001483
20
-17.753724
30
0.0
11
0.916865
21
-17.780253
31
0.0
0
LINE
8
Ebene 1
62
4
5
120
100
AcDbEntity
100
AcDbLine
10
0.916865
20
-17.780253
30
0.0
11
2.663179
21
-17.688792
31
0.0
0
LINE
8
Ebene 1
62
4
5
121
100
AcDbEntity
100
AcDbLine
10
2.663179
20
-17.688792
30
0.0
11
4.359058
21
-17.420346
31
0.0
0
LINE
8
Ebene 1
62
4
5
122
100
AcDbEntity
100
AcDbLine
10
4.359058
20
-17.420346
30
0.0
11
5.995916
21
-16.983820
31
0.0
0
LINE
8
Ebene 1
62
4
5
123
100
AcDbEntity
100
AcDbLine
10
5.995916
20
-16.983820
30
0.0
11
7.565166
21
-16.388121
31
0.0
0
LINE
8
Ebene 1
62
4
5
124
100
AcDbEntity
100
AcDbLine
10
7.565166
20
-16.388121
30
0.0
11
9.058221
21
-15.642152
31
0.0
0
LINE
8
Ebene 1
62
4
5
125
100
AcDbEntity
100
AcDbLine
10
9.058221
20
-15.642152
30
0.0
11
10.466495
21
-14.754819
31
0.0
0
LINE
8
Ebene 1
62
4
5
126
100
AcDbEntity
100
AcDbLine
10
10.466495
20
-14.754819
30
0.0
11
11.781401
21
-13.735029
31
0.0
0
LINE
8
Ebene 1
62
4
5
127
100
AcDbEntity
100
AcDbLine
10
11.781401
20
-13.735029
30
0.0
11
12.994351
21
-12.591685
31
0.0
0
LINE
8
Ebene 1
62
4
5
128
100
AcDbEntity
100
AcDbLine
10
12.994351
20
-12.591685
30
0.0
11
14.096760
21
-11.333694
31
0.0
0
LINE
8
Ebene 1
62
4
5
129
100
AcDbEntity
100
AcDbLine
10
14.096760
20
-11.333694
30
0.0
11
15.080040
21
-9.969961
31
0.0
0
LINE
8
Ebene 1
62
4
5
12a
100
AcDbEntity
100
AcDbLine
10
15.080040
20
-9.969961
30
0.0
11
15.935605
21
-8.509390
31
0.0
0
LINE
8
Ebene 1
62
4
5
12b
100
AcDbEntity
100
AcDbLine
10
15.935605
20
-8.509390
30
0.0
11
16.654868
21
-6.960889
31
0.0
0
LINE
8
Ebene 1
62
4
5
12c
100
AcDbEntity
100
AcDbLine
10
16.654868
20
-6.960889
30
0.0
11
17.229242
21
-5.333360
31
0.0
0
LINE
8
Ebene 1
62
4
5
12d
100
AcDbEntity
100
AcDbLine
10
17.229242
20
-5.333360
30
0.0
11
17.650141
21
-3.635711
31
0.0
0
LINE
8
Ebene 1
62
4
5
12e
100
AcDbEntity
100
AcDbLine
10
17.650141
20
-3.635711
30
0.0
11
17.908977
21
-1.876847
31
0.0
0
LINE
8
Ebene 1
62
4
5
12f
100
AcDbEntity
100
AcDbLine
10
17.908977
20
-1.876847
30
0.0
11
17.997164
21
-0.065672
31
0.0
0
LINE
8
Ebene 1
62
4
5
130
100
AcDbEntity
100
AcDbLine
10
17.997164
20
-0.065672
30
0.0
11
17.926111
21
2.241214
31
0.0
0
LINE
8
Ebene 1
62
4
5
131
100
AcDbEntity
100
AcDbLine
10
17.926111
20
2.241214
30
0.0
11
17.680025
21
4.490238
31
0.0
0
LINE
8
Ebene 1
62
4
5
132
100
AcDbEntity
100
AcDbLine
10
17.680025
20
4.490238
30
0.0
11
17.209506
21
6.678539
31
0.0
0
LINE
8
Ebene 1
62
4
5
133
100
AcDbEntity
100
AcDbLine
10
17.209506
20
6.678539
30
0.0
11
16.465159
21
8.803258
31
0.0
0
LINE
8
Ebene 1
62
4
5
134
100
AcDbEntity
100
AcDbLine
10
16.465159
20
8.803258
30
0.0
11
15.397584
21
10.861534
31
0.0
0
LINE
8
Ebene 1
62
4
5
135
100
AcDbEntity
100
AcDbLine
10
15.397584
20
10.861534
30
0.0
11
13.957386
21
12.850507
31
0.0
0
LINE
8
Ebene 1
62
4
5
136
100
AcDbEntity
100
AcDbLine
10
13.957386
20
12.850507
30
0.0
11
12.095167
21
14.767316
31
0.0
0
LINE
8
Ebene 1
62
4
5
137
100
AcDbEntity
100
AcDbLine
10
12.095167
20
14.767316
30
0.0
11
9.761529
21
16.609101
31
0.0
0
LINE
8
Ebene 1
62
4
5
138
100
AcDbEntity
100
AcDbLine
10
9.761529
20
16.609101
30
0.0
11
7.535511
21
17.881625
31
0.0
0
LINE
8
Ebene 1
62
4
5
139
100
AcDbEntity
100
AcDbLine
10
7.535511
20
17.881625
30
0.0
11
5.883405
21
18.703413
31
0.0
0
LINE
8
Ebene 1
62
4
5
13a
100
AcDbEntity
100
AcDbLine
10
5.883405
20
18.703413
30
0.0
11
3.540358
21
19.284130
31
0.0
0
LINE
8
Ebene 1
62
4
5
13b
100
AcDbEntity
100
AcDbLine
10
3.540358
20
19.284130
30
0.0
11
1.332722
21
19.980463
31
0.0
0
LINE
8
Ebene 1
62
4
5
13c
100
AcDbEntity
100
AcDbLine
10
1.332722
20
19.980463
30
0.0
11
1.042009
21
20.007048
31
0.0
0
LINE
8
Ebene 1
62
4
5
13d
100
AcDbEntity
100
AcDbLine
10
1.042009
20
20.007048
30
0.0
11
0.135851
21
19.963859
31
0.0
0
LINE
8
Ebene 1
62
4
5
13e
100
AcDbEntity
100
AcDbLine
10
0.135851
20
19.963859
30
0.0
11
-0.001483
21
19.962448
31
0.0
0
LINE
8
Ebene 1
62
4
5
13f
100
AcDbEntity
100
AcDbLine
10
-0.001483
20
19.962448
30
0.0
11
-0.138178
21
19.963859
31
0.0
0
LINE
8
Ebene 1
62
4
5
140
100
AcDbEntity
100
AcDbLine
10
-0.138178
20
19.963859
30
0.0
11
-0.988503
21
20.007714
31
0.0
0
LINE
8
Ebene 1
62
4
5
141
100
AcDbEntity
100
AcDbLine
10
-0.988503
20
20.007714
30
0.0
11
-0.988503
21
20.007612
31
0.0
  0
ENDSEC
  0
SECTION
  2
OBJECTS
  0
DICTIONARY
  5
C
330
0
100
AcDbDictionary
  3
ACAD_GROUP
350
D
  3
ACAD_MLINESTYLE
350
17
  0
DICTIONARY
  5
D
330
C
100
AcDbDictionary
  0
DICTIONARY
  5
1A
330
C
100
AcDbDictionary
  0
DICTIONARY
  5
17
330
C
100
AcDbDictionary
  3
STANDARD
350
18
  0
DICTIONARY
  5
19
330
C
100
AcDbDictionary
  0
ENDSEC
  0
EOF
