999
Inkscape export via "Better DXF Output" (bob@bobcookdev.com)
  0
SECTION
  2
HEADER
  9
$ACADVER
  1
AC1014
  9
$HANDSEED
  5
FFFF
  0
ENDSEC
  0
SECTION
  2
TABLES
  0
TABLE
  2
VPORT
  5
8
330
0
100
AcDbSymbolTable
 70
     4
  0
VPORT
  5
2E
330
8
100
AcDbSymbolTableRecord
100
AcDbViewportTableRecord
  2
*ACTIVE
 70
     0
 10
0.0
 20
0.0
 11
1.0
 21
1.0
 12
4.25
 22
5.5
 13
0.0
 23
0.0
 14
10.0
 24
10.0
 15
10.0
 25
10.0
 16
0.0
 26
0.0
 36
1.0
 17
0.0
 27
0.0
 37
0.0
 40
11
 41
1.24
 42
50.0
 43
0.0
 44
0.0
 50
0.0
 51
0.0
 71
     0
 72
   100
 73
     1
 74
     3
 75
     0
 76
     0
 77
     0
 78
     0
  0
ENDTAB
  0
TABLE
  2
LTYPE
  5
5
330
0
100
AcDbSymbolTable
 70
     1
  0
LTYPE
  5
14
330
5
100
AcDbSymbolTableRecord
100
AcDbLinetypeTableRecord
  2
BYBLOCK
 70
     0
  3

 72
    65
 73
     0
 40
0.0
  0
LTYPE
  5
15
330
5
100
AcDbSymbolTableRecord
100
AcDbLinetypeTableRecord
  2
BYLAYER
 70
     0
  3

 72
    65
 73
     0
 40
0.0
  0
LTYPE
  5
16
330
5
100
AcDbSymbolTableRecord
100
AcDbLinetypeTableRecord
  2
CONTINUOUS
 70
     0
  3
Solid line
 72
    65
 73
     0
 40
0.0
  0
ENDTAB
  0
TABLE
  2
LAYER
  5
2
330
0
100
AcDbSymbolTable
 70
1
  0
LAYER
  5
10
330
2
100
AcDbSymbolTableRecord
100
AcDbLayerTableRecord
  2
0
 70
     0
 62
     7
  6
CONTINUOUS
  0
ENDTAB
  0
TABLE
  2
STYLE
  5
3
330
0
100
AcDbSymbolTable
 70
     1
  0
STYLE
  5
11
330
3
100
AcDbSymbolTableRecord
100
AcDbTextStyleTableRecord
  2
STANDARD
 70
     0
 40
0.0
 41
1.0
 50
0.0
 71
     0
 42
2.5
  3
txt
  4

  0
ENDTAB
  0
TABLE
  2
VIEW
  5
6
330
0
100
AcDbSymbolTable
 70
     0
  0
ENDTAB
  0
TABLE
  2
UCS
  5
7
330
0
100
AcDbSymbolTable
 70
     0
  0
ENDTAB
  0
TABLE
  2
APPID
  5
9
330
0
100
AcDbSymbolTable
 70
     2
  0
APPID
  5
12
330
9
100
AcDbSymbolTableRecord
100
AcDbRegAppTableRecord
  2
ACAD
 70
     0
  0
ENDTAB
  0
TABLE
  2
DIMSTYLE
  5
A
330
0
100
AcDbSymbolTable
 70
     1
  0
DIMSTYLE
105
27
330
A
100
AcDbSymbolTableRecord
100
AcDbDimStyleTableRecord
  2
ISO-25
 70
     0
  3

  4

  5

  6

  7

 40
1.0
 41
2.5
 42
0.625
 43
3.75
 44
1.25
 45
0.0
 46
0.0
 47
0.0
 48
0.0
140
2.5
141
2.5
142
0.0
143
0.03937007874016
144
1.0
145
0.0
146
1.0
147
0.625
 71
     0
 72
     0
 73
     0
 74
     0
 75
     0
 76
     0
 77
     1
 78
     8
170
     0
171
     3
172
     1
173
     0
174
     0
175
     0
176
     0
177
     0
178
     0
270
     2
271
     2
272
     2
273
     2
274
     3
340
11
275
     0
280
     0
281
     0
282
     0
283
     0
284
     8
285
     0
286
     0
287
     3
288
     0
  0
ENDTAB
  0
TABLE
  2
BLOCK_RECORD
  5
1
330
0
100
AcDbSymbolTable
 70
     1
  0
BLOCK_RECORD
  5
1F
330
1
100
AcDbSymbolTableRecord
100
AcDbBlockTableRecord
  2
*MODEL_SPACE
  0
BLOCK_RECORD
  5
1B
330
1
100
AcDbSymbolTableRecord
100
AcDbBlockTableRecord
  2
*PAPER_SPACE
  0
ENDTAB
  0
ENDSEC
  0
SECTION
  2
BLOCKS
  0
BLOCK
  5
20
330
1F
100
AcDbEntity
  8
0
100
AcDbBlockBegin
  2
*MODEL_SPACE
 70
     0
 10
0.0
 20
0.0
 30
0.0
  3
*MODEL_SPACE
  1

  0
ENDBLK
  5
21
330
1F
100
AcDbEntity
  8
0
100
AcDbBlockEnd
  0
BLOCK
  5
1C
330
1B
100
AcDbEntity
 67
     1
  8
0
100
AcDbBlockBegin
  2
*PAPER_SPACE
  1

  0
ENDBLK
  5
1D
330
1B
100
AcDbEntity
 67
     1
  8
0
100
AcDbBlockEnd
  0
ENDSEC
  0
SECTION
  2
ENTITIES
0
LINE
8
Ebene 1
62
4
5
100
100
AcDbEntity
100
AcDbLine
10
-0.462554
20
-19.680652
30
0.0
11
-2.501865
21
-19.577032
31
0.0
0
LINE
8
Ebene 1
62
4
5
101
100
AcDbEntity
100
AcDbLine
10
-2.501865
20
-19.577032
30
0.0
11
-4.449588
21
-19.253711
31
0.0
0
LINE
8
Ebene 1
62
4
5
102
100
AcDbEntity
100
AcDbLine
10
-4.449588
20
-19.253711
30
0.0
11
-6.300205
21
-18.725619
31
0.0
0
LINE
8
Ebene 1
62
4
5
103
100
AcDbEntity
100
AcDbLine
10
-6.300205
20
-18.725619
30
0.0
11
-8.048200
21
-18.007689
31
0.0
0
LINE
8
Ebene 1
62
4
5
104
100
AcDbEntity
100
AcDbLine
10
-8.048200
20
-18.007689
30
0.0
11
-9.688057
21
-17.114853
31
0.0
0
LINE
8
Ebene 1
62
4
5
105
100
AcDbEntity
100
AcDbLine
10
-9.688057
20
-17.114853
30
0.0
11
-11.214260
21
-16.062042
31
0.0
0
LINE
8
Ebene 1
62
4
5
106
100
AcDbEntity
100
AcDbLine
10
-11.214260
20
-16.062042
30
0.0
11
-12.621291
21
-14.864188
31
0.0
0
LINE
8
Ebene 1
62
4
5
107
100
AcDbEntity
100
AcDbLine
10
-12.621291
20
-14.864188
30
0.0
11
-13.903634
21
-13.536223
31
0.0
0
LINE
8
Ebene 1
62
4
5
108
100
AcDbEntity
100
AcDbLine
10
-13.903634
20
-13.536223
30
0.0
11
-15.055773
21
-12.093078
31
0.0
0
LINE
8
Ebene 1
62
4
5
109
100
AcDbEntity
100
AcDbLine
10
-15.055773
20
-12.093078
30
0.0
11
-16.072192
21
-10.549685
31
0.0
0
LINE
8
Ebene 1
62
4
5
10a
100
AcDbEntity
100
AcDbLine
10
-16.072192
20
-10.549685
30
0.0
11
-16.947373
21
-8.920975
31
0.0
0
LINE
8
Ebene 1
62
4
5
10b
100
AcDbEntity
100
AcDbLine
10
-16.947373
20
-8.920975
30
0.0
11
-17.675801
21
-7.221881
31
0.0
0
LINE
8
Ebene 1
62
4
5
10c
100
AcDbEntity
100
AcDbLine
10
-17.675801
20
-7.221881
30
0.0
11
-18.251958
21
-5.467334
31
0.0
0
LINE
8
Ebene 1
62
4
5
10d
100
AcDbEntity
100
AcDbLine
10
-18.251958
20
-5.467334
30
0.0
11
-18.670329
21
-3.672265
31
0.0
0
LINE
8
Ebene 1
62
4
5
10e
100
AcDbEntity
100
AcDbLine
10
-18.670329
20
-3.672265
30
0.0
11
-18.925397
21
-1.851607
31
0.0
0
LINE
8
Ebene 1
62
4
5
10f
100
AcDbEntity
100
AcDbLine
10
-18.925397
20
-1.851607
30
0.0
11
-19.011646
21
-0.020290
31
0.0
0
LINE
8
Ebene 1
62
4
5
110
100
AcDbEntity
100
AcDbLine
10
-19.011646
20
-0.020290
30
0.0
11
-18.776258
21
2.692518
31
0.0
0
LINE
8
Ebene 1
62
4
5
111
100
AcDbEntity
100
AcDbLine
10
-18.776258
20
2.692518
30
0.0
11
-18.099049
21
5.275684
31
0.0
0
LINE
8
Ebene 1
62
4
5
112
100
AcDbEntity
100
AcDbLine
10
-18.099049
20
5.275684
30
0.0
11
-17.023455
21
7.698559
31
0.0
0
LINE
8
Ebene 1
62
4
5
113
100
AcDbEntity
100
AcDbLine
10
-17.023455
20
7.698559
30
0.0
11
-15.592912
21
9.930498
31
0.0
0
LINE
8
Ebene 1
62
4
5
114
100
AcDbEntity
100
AcDbLine
10
-15.592912
20
9.930498
30
0.0
11
-14.233840
21
11.545063
31
0.0
0
LINE
8
Ebene 1
62
4
5
115
100
AcDbEntity
100
AcDbLine
10
-14.233840
20
11.545063
30
0.0
11
-13.253901
21
12.644411
31
0.0
0
LINE
8
Ebene 1
62
4
5
116
100
AcDbEntity
100
AcDbLine
10
-13.253901
20
12.644411
30
0.0
11
-12.200338
21
13.667516
31
0.0
0
LINE
8
Ebene 1
62
4
5
117
100
AcDbEntity
100
AcDbLine
10
-12.200338
20
13.667516
30
0.0
11
-10.904651
21
14.431772
31
0.0
0
LINE
8
Ebene 1
62
4
5
118
100
AcDbEntity
100
AcDbLine
10
-10.904651
20
14.431772
30
0.0
11
-9.891827
21
14.911458
31
0.0
0
LINE
8
Ebene 1
62
4
5
119
100
AcDbEntity
100
AcDbLine
10
-9.891827
20
14.911458
30
0.0
11
-8.047831
21
16.038380
31
0.0
0
LINE
8
Ebene 1
62
4
5
11a
100
AcDbEntity
100
AcDbLine
10
-8.047831
20
16.038380
30
0.0
11
-5.681898
21
16.354102
31
0.0
0
LINE
8
Ebene 1
62
4
5
11b
100
AcDbEntity
100
AcDbLine
10
-5.681898
20
16.354102
30
0.0
11
-4.641747
21
16.674164
31
0.0
0
LINE
8
Ebene 1
62
4
5
11c
100
AcDbEntity
100
AcDbLine
10
-4.641747
20
16.674164
30
0.0
11
-3.588417
21
16.898610
31
0.0
0
LINE
8
Ebene 1
62
4
5
11d
100
AcDbEntity
100
AcDbLine
10
-3.588417
20
16.898610
30
0.0
11
-2.129071
21
16.665900
31
0.0
0
LINE
8
Ebene 1
62
4
5
11e
100
AcDbEntity
100
AcDbLine
10
-2.129071
20
16.665900
30
0.0
11
-0.301763
21
16.412934
31
0.0
0
LINE
8
Ebene 1
62
4
5
11f
100
AcDbEntity
100
AcDbLine
10
-0.301763
20
16.412934
30
0.0
11
0.002593
21
16.410394
31
0.0
0
LINE
8
Ebene 1
62
4
5
120
100
AcDbEntity
100
AcDbLine
10
0.002593
20
16.410394
30
0.0
11
0.306311
21
16.412934
31
0.0
0
LINE
8
Ebene 1
62
4
5
121
100
AcDbEntity
100
AcDbLine
10
0.306311
20
16.412934
30
0.0
11
2.133620
21
16.665897
31
0.0
0
LINE
8
Ebene 1
62
4
5
122
100
AcDbEntity
100
AcDbLine
10
2.133620
20
16.665897
30
0.0
11
3.592967
21
16.898610
31
0.0
0
LINE
8
Ebene 1
62
4
5
123
100
AcDbEntity
100
AcDbLine
10
3.592967
20
16.898610
30
0.0
11
4.646298
21
16.674164
31
0.0
0
LINE
8
Ebene 1
62
4
5
124
100
AcDbEntity
100
AcDbLine
10
4.646298
20
16.674164
30
0.0
11
5.686448
21
16.354102
31
0.0
0
LINE
8
Ebene 1
62
4
5
125
100
AcDbEntity
100
AcDbLine
10
5.686448
20
16.354102
30
0.0
11
8.052381
21
16.038380
31
0.0
0
LINE
8
Ebene 1
62
4
5
126
100
AcDbEntity
100
AcDbLine
10
8.052381
20
16.038380
30
0.0
11
9.896379
21
14.911458
31
0.0
0
LINE
8
Ebene 1
62
4
5
127
100
AcDbEntity
100
AcDbLine
10
9.896379
20
14.911458
30
0.0
11
10.909201
21
14.431772
31
0.0
0
LINE
8
Ebene 1
62
4
5
128
100
AcDbEntity
100
AcDbLine
10
10.909201
20
14.431772
30
0.0
11
12.204886
21
13.667516
31
0.0
0
LINE
8
Ebene 1
62
4
5
129
100
AcDbEntity
100
AcDbLine
10
12.204886
20
13.667516
30
0.0
11
13.258450
21
12.644411
31
0.0
0
LINE
8
Ebene 1
62
4
5
12a
100
AcDbEntity
100
AcDbLine
10
13.258450
20
12.644411
30
0.0
11
14.238388
21
11.545063
31
0.0
0
LINE
8
Ebene 1
62
4
5
12b
100
AcDbEntity
100
AcDbLine
10
14.238388
20
11.545063
30
0.0
11
15.597463
21
9.930498
31
0.0
0
LINE
8
Ebene 1
62
4
5
12c
100
AcDbEntity
100
AcDbLine
10
15.597463
20
9.930498
30
0.0
11
17.028005
21
7.698559
31
0.0
0
LINE
8
Ebene 1
62
4
5
12d
100
AcDbEntity
100
AcDbLine
10
17.028005
20
7.698559
30
0.0
11
18.103598
21
5.275684
31
0.0
0
LINE
8
Ebene 1
62
4
5
12e
100
AcDbEntity
100
AcDbLine
10
18.103598
20
5.275684
30
0.0
11
18.780806
21
2.692518
31
0.0
0
LINE
8
Ebene 1
62
4
5
12f
100
AcDbEntity
100
AcDbLine
10
18.780806
20
2.692518
30
0.0
11
19.016194
21
-0.020290
31
0.0
0
LINE
8
Ebene 1
62
4
5
130
100
AcDbEntity
100
AcDbLine
10
19.016194
20
-0.020290
30
0.0
11
18.929946
21
-1.851607
31
0.0
0
LINE
8
Ebene 1
62
4
5
131
100
AcDbEntity
100
AcDbLine
10
18.929946
20
-1.851607
30
0.0
11
18.674878
21
-3.672265
31
0.0
0
LINE
8
Ebene 1
62
4
5
132
100
AcDbEntity
100
AcDbLine
10
18.674878
20
-3.672265
30
0.0
11
18.256507
21
-5.467334
31
0.0
0
LINE
8
Ebene 1
62
4
5
133
100
AcDbEntity
100
AcDbLine
10
18.256507
20
-5.467334
30
0.0
11
17.680350
21
-7.221881
31
0.0
0
LINE
8
Ebene 1
62
4
5
134
100
AcDbEntity
100
AcDbLine
10
17.680350
20
-7.221881
30
0.0
11
16.951922
21
-8.920975
31
0.0
0
LINE
8
Ebene 1
62
4
5
135
100
AcDbEntity
100
AcDbLine
10
16.951922
20
-8.920975
30
0.0
11
16.076741
21
-10.549685
31
0.0
0
LINE
8
Ebene 1
62
4
5
136
100
AcDbEntity
100
AcDbLine
10
16.076741
20
-10.549685
30
0.0
11
15.060323
21
-12.093078
31
0.0
0
LINE
8
Ebene 1
62
4
5
137
100
AcDbEntity
100
AcDbLine
10
15.060323
20
-12.093078
30
0.0
11
13.908184
21
-13.536223
31
0.0
0
LINE
8
Ebene 1
62
4
5
138
100
AcDbEntity
100
AcDbLine
10
13.908184
20
-13.536223
30
0.0
11
12.625840
21
-14.864188
31
0.0
0
LINE
8
Ebene 1
62
4
5
139
100
AcDbEntity
100
AcDbLine
10
12.625840
20
-14.864188
30
0.0
11
11.218809
21
-16.062042
31
0.0
0
LINE
8
Ebene 1
62
4
5
13a
100
AcDbEntity
100
AcDbLine
10
11.218809
20
-16.062042
30
0.0
11
9.692607
21
-17.114853
31
0.0
0
LINE
8
Ebene 1
62
4
5
13b
100
AcDbEntity
100
AcDbLine
10
9.692607
20
-17.114853
30
0.0
11
8.052750
21
-18.007689
31
0.0
0
LINE
8
Ebene 1
62
4
5
13c
100
AcDbEntity
100
AcDbLine
10
8.052750
20
-18.007689
30
0.0
11
6.304755
21
-18.725619
31
0.0
0
LINE
8
Ebene 1
62
4
5
13d
100
AcDbEntity
100
AcDbLine
10
6.304755
20
-18.725619
30
0.0
11
4.454137
21
-19.253711
31
0.0
0
LINE
8
Ebene 1
62
4
5
13e
100
AcDbEntity
100
AcDbLine
10
4.454137
20
-19.253711
30
0.0
11
2.506415
21
-19.577032
31
0.0
0
LINE
8
Ebene 1
62
4
5
13f
100
AcDbEntity
100
AcDbLine
10
2.506415
20
-19.577032
30
0.0
11
0.467104
21
-19.680652
31
0.0
0
LINE
8
Ebene 1
62
4
5
140
100
AcDbEntity
100
AcDbLine
10
0.467104
20
-19.680652
30
0.0
11
0.002593
21
-19.669646
31
0.0
0
LINE
8
Ebene 1
62
4
5
141
100
AcDbEntity
100
AcDbLine
10
0.002593
20
-19.669646
30
0.0
11
-0.462554
21
-19.680652
31
0.0
0
LINE
8
Ebene 1
62
4
5
142
100
AcDbEntity
100
AcDbLine
10
-0.462554
20
-19.680652
30
0.0
11
-0.462554
21
-19.680652
31
0.0
  0
ENDSEC
  0
SECTION
  2
OBJECTS
  0
DICTIONARY
  5
C
330
0
100
AcDbDictionary
  3
ACAD_GROUP
350
D
  3
ACAD_MLINESTYLE
350
17
  0
DICTIONARY
  5
D
330
C
100
AcDbDictionary
  0
DICTIONARY
  5
1A
330
C
100
AcDbDictionary
  0
DICTIONARY
  5
17
330
C
100
AcDbDictionary
  3
STANDARD
350
18
  0
DICTIONARY
  5
19
330
C
100
AcDbDictionary
  0
ENDSEC
  0
EOF
